ISO-10303-21;
HEADER;
FILE_DESCRIPTION (( 'STEP AP203' ),
    '1' );
FILE_NAME ('QB-CTZHWP-50.8-795-M.STEP',
    '2020-12-24T01:38:33',
    ( '' ),
    ( '' ),
    'SwSTEP 2.0',
    'SolidWorks 2020',
    '' );
FILE_SCHEMA (( 'CONFIG_CONTROL_DESIGN' ));
ENDSEC;

DATA;
#1 = CALENDAR_DATE ( 2020, 24, 12 ) ;
#2 = APPROVAL_PERSON_ORGANIZATION ( #23, #141, #160 ) ;
#3 = PRODUCT ( 'QB-CTZHWP-50.8-795-M', 'QB-CTZHWP-50.8-795-M', '', ( #118 ) ) ;
#4 = APPROVAL_ROLE ( '' ) ;
#5 = PERSON_AND_ORGANIZATION ( #22, #168 ) ;
#6 = APPROVAL_DATE_TIME ( #84, #106 ) ;
#7 = DIRECTION ( 'NONE',  ( 0.000000000000000000, 0.000000000000000000, 1.000000000000000000 ) ) ;
#8 = DIRECTION ( 'NONE',  ( 0.000000000000000000, 0.000000000000000000, -1.000000000000000000 ) ) ;
#9 = EDGE_CURVE ( 'NONE', #13, #72, #167, .T. ) ;
#10 = LINE ( 'NONE', #100, #52 ) ;
#11 = AXIS2_PLACEMENT_3D ( 'NONE', #149, #117, #136 ) ;
#12 = CARTESIAN_POINT ( 'NONE',  ( -3.000000000000002665, 0.000000000000000000, 25.39999999999999858 ) ) ;
#13 = VERTEX_POINT ( 'NONE', #45 ) ;
#14 =( GEOMETRIC_REPRESENTATION_CONTEXT ( 3 ) GLOBAL_UNCERTAINTY_ASSIGNED_CONTEXT ( ( #42 ) ) GLOBAL_UNIT_ASSIGNED_CONTEXT ( ( #62, #38, #21 ) ) REPRESENTATION_CONTEXT ( 'NONE', 'WORKASPACE' ) );
#15 = PERSON_AND_ORGANIZATION ( #22, #168 ) ;
#16 = CIRCLE ( 'NONE', #25, 25.39999999999999858 ) ;
#17 = VERTEX_POINT ( 'NONE', #12 ) ;
#18 = EDGE_CURVE ( 'NONE', #72, #17, #10, .T. ) ;
#19 = DIRECTION ( 'NONE',  ( -1.000000000000000000, -0.000000000000000000, -0.000000000000000000 ) ) ;
#20 = ORIENTED_EDGE ( 'NONE', *, *, #169, .T. ) ;
#21 =( NAMED_UNIT ( * ) SI_UNIT ( $, .STERADIAN. ) SOLID_ANGLE_UNIT ( ) );
#22 = PERSON ( 'UNSPECIFIED', 'UNSPECIFIED', 'UNSPECIFIED', ('UNSPECIFIED'), ('UNSPECIFIED'), ('UNSPECIFIED') ) ;
#23 = PERSON_AND_ORGANIZATION ( #22, #168 ) ;
#24 = PERSON_AND_ORGANIZATION ( #22, #168 ) ;
#25 = AXIS2_PLACEMENT_3D ( 'NONE', #76, #98, #36 ) ;
#26 = CC_DESIGN_DATE_AND_TIME_ASSIGNMENT ( #83, #56, ( #65 ) ) ;
#27 = COORDINATED_UNIVERSAL_TIME_OFFSET ( 8, 0, .AHEAD. ) ;
#28 = APPROVAL_ROLE ( '' ) ;
#29 = PERSON_AND_ORGANIZATION ( #22, #168 ) ;
#30 = PRODUCT_DEFINITION_FORMATION_WITH_SPECIFIED_SOURCE ( 'ANY', '', #3, .NOT_KNOWN. ) ;
#31 = ORIENTED_EDGE ( 'NONE', *, *, #96, .T. ) ;
#32 = EDGE_LOOP ( 'NONE', ( #155, #31, #87, #70 ) ) ;
#33 = CARTESIAN_POINT ( 'NONE',  ( -3.000000000000001332, 25.39999999999999858, 0.000000000000000000 ) ) ;
#34 = DIRECTION ( 'NONE',  ( -0.000000000000000000, 0.000000000000000000, 1.000000000000000000 ) ) ;
#35 = AXIS2_PLACEMENT_3D ( 'NONE', #174, #61, #92 ) ;
#36 = DIRECTION ( 'NONE',  ( 0.000000000000000000, 0.000000000000000000, 1.000000000000000000 ) ) ;
#37 = AXIS2_PLACEMENT_3D ( 'NONE', #157, #50, #34 ) ;
#38 =( NAMED_UNIT ( * ) PLANE_ANGLE_UNIT ( ) SI_UNIT ( $, .RADIAN. ) );
#39 = CC_DESIGN_PERSON_AND_ORGANIZATION_ASSIGNMENT ( #24, #134, ( #3 ) ) ;
#40 = DATE_AND_TIME ( #140, #138 ) ;
#41 = PERSON_AND_ORGANIZATION_ROLE ( 'creator' ) ;
#42 = UNCERTAINTY_MEASURE_WITH_UNIT (LENGTH_MEASURE( 1.000000000000000082E-05 ), #62, 'distance_accuracy_value', 'NONE');
#43 = DATE_TIME_ROLE ( 'classification_date' ) ;
#44 = PRODUCT_RELATED_PRODUCT_CATEGORY ( 'detail', '', ( #3 ) ) ;
#45 = CARTESIAN_POINT ( 'NONE',  ( 3.000000000000002665, 3.110602869834276865E-15, -25.39999999999999858 ) ) ;
#46 = SECURITY_CLASSIFICATION ( '', '', #126 ) ;
#47 = ORIENTED_EDGE ( 'NONE', *, *, #139, .F. ) ;
#48 = DIRECTION ( 'NONE',  ( -1.000000000000000000, -0.000000000000000000, -0.000000000000000000 ) ) ;
#49 = CARTESIAN_POINT ( 'NONE',  ( -3.000000000000002665, 3.110602869834276865E-15, -25.39999999999999858 ) ) ;
#50 = DIRECTION ( 'NONE',  ( -1.000000000000000000, 0.000000000000000000, -0.000000000000000000 ) ) ;
#51 = DATE_AND_TIME ( #137, #93 ) ;
#52 = VECTOR ( 'NONE', #19, 1000.000000000000000 ) ;
#53 = ADVANCED_FACE ( 'NONE', ( #115 ), #171, .F. ) ;
#54 = PERSON_AND_ORGANIZATION ( #22, #168 ) ;
#55 = PERSON_AND_ORGANIZATION_ROLE ( 'classification_officer' ) ;
#56 = DATE_TIME_ROLE ( 'creation_date' ) ;
#57 = APPROVAL_STATUS ( 'not_yet_approved' ) ;
#58 = EDGE_LOOP ( 'NONE', ( #71, #20 ) ) ;
#59 = MANIFOLD_SOLID_BREP ( 'Ðý×', #120 ) ;
#60 = FACE_OUTER_BOUND ( 'NONE', #58, .T. ) ;
#61 = DIRECTION ( 'NONE',  ( 0.000000000000000000, 0.000000000000000000, 1.000000000000000000 ) ) ;
#62 =( LENGTH_UNIT ( ) NAMED_UNIT ( * ) SI_UNIT ( .MILLI., .METRE. ) );
#63 = CALENDAR_DATE ( 2020, 24, 12 ) ;
#64 = AXIS2_PLACEMENT_3D ( 'NONE', #88, #145, #170 ) ;
#65 = PRODUCT_DEFINITION ( 'UNKNOWN', '', #30, #73 ) ;
#66 = PERSON_AND_ORGANIZATION ( #22, #168 ) ;
#67 = EDGE_CURVE ( 'NONE', #17, #142, #16, .T. ) ;
#68 = VECTOR ( 'NONE', #113, 1000.000000000000000 ) ;
#69 = APPLICATION_CONTEXT ( 'configuration controlled 3d designs of mechanical parts and assemblies' ) ;
#70 = ORIENTED_EDGE ( 'NONE', *, *, #18, .F. ) ;
#71 = ORIENTED_EDGE ( 'NONE', *, *, #67, .T. ) ;
#72 = VERTEX_POINT ( 'NONE', #132 ) ;
#73 = DESIGN_CONTEXT ( 'detailed design', #122, 'design' ) ;
#74 = LOCAL_TIME ( 9, 38, 33.00000000000000000, #108 ) ;
#75 = CC_DESIGN_PERSON_AND_ORGANIZATION_ASSIGNMENT ( #66, #41, ( #30 ) ) ;
#76 = CARTESIAN_POINT ( 'NONE',  ( -3.000000000000002665, 0.000000000000000000, 0.000000000000000000 ) ) ;
#77 = ORIENTED_EDGE ( 'NONE', *, *, #18, .T. ) ;
#78 = DIRECTION ( 'NONE',  ( 0.000000000000000000, 0.000000000000000000, 1.000000000000000000 ) ) ;
#79 = AXIS2_PLACEMENT_3D ( 'NONE', #33, #129, #8 ) ;
#80 = APPROVAL_STATUS ( 'not_yet_approved' ) ;
#81 = APPLICATION_PROTOCOL_DEFINITION ( 'international standard', 'config_control_design', 1994, #69 ) ;
#82 = CALENDAR_DATE ( 2020, 24, 12 ) ;
#83 = DATE_AND_TIME ( #82, #99 ) ;
#84 = DATE_AND_TIME ( #63, #74 ) ;
#85 = CIRCLE ( 'NONE', #162, 25.39999999999999858 ) ;
#86 = PLANE ( 'NONE',  #79 ) ;
#87 = ORIENTED_EDGE ( 'NONE', *, *, #67, .F. ) ;
#88 = CARTESIAN_POINT ( 'NONE',  ( 3.000000000000002665, 0.000000000000000000, 0.000000000000000000 ) ) ;
#89 = CC_DESIGN_SECURITY_CLASSIFICATION ( #46, ( #30 ) ) ;
#90 = APPROVAL ( #57, 'UNSPECIFIED' ) ;
#91 = PERSON_AND_ORGANIZATION_ROLE ( 'creator' ) ;
#92 = DIRECTION ( 'NONE',  ( 1.000000000000000000, 0.000000000000000000, 0.000000000000000000 ) ) ;
#93 = LOCAL_TIME ( 9, 38, 33.00000000000000000, #175 ) ;
#94 = APPROVAL_STATUS ( 'not_yet_approved' ) ;
#95 = AXIS2_PLACEMENT_3D ( 'NONE', #114, #48, #101 ) ;
#96 = EDGE_CURVE ( 'NONE', #13, #142, #110, .T. ) ;
#97 = PERSON_AND_ORGANIZATION_ROLE ( 'design_supplier' ) ;
#98 = DIRECTION ( 'NONE',  ( -1.000000000000000000, -0.000000000000000000, -0.000000000000000000 ) ) ;
#99 = LOCAL_TIME ( 9, 38, 33.00000000000000000, #27 ) ;
#100 = CARTESIAN_POINT ( 'NONE',  ( -3.000000000000000000, 0.000000000000000000, 25.39999999999999858 ) ) ;
#101 = DIRECTION ( 'NONE',  ( 0.000000000000000000, 0.000000000000000000, 1.000000000000000000 ) ) ;
#102 = FACE_OUTER_BOUND ( 'NONE', #158, .T. ) ;
#103 = ADVANCED_FACE ( 'NONE', ( #60 ), #86, .F. ) ;
#104 = ORIENTED_EDGE ( 'NONE', *, *, #96, .F. ) ;
#105 = APPROVAL_DATE_TIME ( #51, #141 ) ;
#106 = APPROVAL ( #94, 'UNSPECIFIED' ) ;
#107 = APPROVAL_PERSON_ORGANIZATION ( #29, #90, #4 ) ;
#108 = COORDINATED_UNIVERSAL_TIME_OFFSET ( 8, 0, .AHEAD. ) ;
#109 = ORIENTED_EDGE ( 'NONE', *, *, #9, .F. ) ;
#110 = LINE ( 'NONE', #153, #68 ) ;
#111 = AXIS2_PLACEMENT_3D ( 'NONE', #127, #133, #7 ) ;
#112 = CC_DESIGN_APPROVAL ( #141, ( #65 ) ) ;
#113 = DIRECTION ( 'NONE',  ( -1.000000000000000000, -0.000000000000000000, -0.000000000000000000 ) ) ;
#114 = CARTESIAN_POINT ( 'NONE',  ( -3.000000000000000000, 0.000000000000000000, 0.000000000000000000 ) ) ;
#115 = FACE_OUTER_BOUND ( 'NONE', #144, .T. ) ;
#116 = CIRCLE ( 'NONE', #64, 25.39999999999999858 ) ;
#117 = DIRECTION ( 'NONE',  ( -1.000000000000000000, -0.000000000000000000, -0.000000000000000000 ) ) ;
#118 = MECHANICAL_CONTEXT ( 'NONE', #69, 'mechanical' ) ;
#119 = SHAPE_DEFINITION_REPRESENTATION ( #163, #161 ) ;
#120 = CLOSED_SHELL ( 'NONE', ( #124, #156, #53, #103 ) ) ;
#121 = CC_DESIGN_APPROVAL ( #90, ( #30 ) ) ;
#122 = APPLICATION_CONTEXT ( 'configuration controlled 3d designs of mechanical parts and assemblies' ) ;
#123 = COORDINATED_UNIVERSAL_TIME_OFFSET ( 8, 0, .AHEAD. ) ;
#124 = ADVANCED_FACE ( 'NONE', ( #166 ), #130, .T. ) ;
#125 = APPROVAL_DATE_TIME ( #40, #90 ) ;
#126 = SECURITY_CLASSIFICATION_LEVEL ( 'unclassified' ) ;
#127 = CARTESIAN_POINT ( 'NONE',  ( 3.000000000000002665, 0.000000000000000000, 0.000000000000000000 ) ) ;
#128 = CC_DESIGN_PERSON_AND_ORGANIZATION_ASSIGNMENT ( #15, #91, ( #65 ) ) ;
#129 = DIRECTION ( 'NONE',  ( 1.000000000000000000, 0.000000000000000000, 0.000000000000000000 ) ) ;
#130 = CYLINDRICAL_SURFACE ( 'NONE', #95, 25.39999999999999858 ) ;
#131 = LOCAL_TIME ( 9, 38, 33.00000000000000000, #123 ) ;
#132 = CARTESIAN_POINT ( 'NONE',  ( 3.000000000000002665, 0.000000000000000000, 25.39999999999999858 ) ) ;
#133 = DIRECTION ( 'NONE',  ( -1.000000000000000000, -0.000000000000000000, -0.000000000000000000 ) ) ;
#134 = PERSON_AND_ORGANIZATION_ROLE ( 'design_owner' ) ;
#135 = DIRECTION ( 'NONE',  ( -1.000000000000000000, -0.000000000000000000, -0.000000000000000000 ) ) ;
#136 = DIRECTION ( 'NONE',  ( 0.000000000000000000, 0.000000000000000000, 1.000000000000000000 ) ) ;
#137 = CALENDAR_DATE ( 2020, 24, 12 ) ;
#138 = LOCAL_TIME ( 9, 38, 33.00000000000000000, #150 ) ;
#139 = EDGE_CURVE ( 'NONE', #72, #13, #116, .T. ) ;
#140 = CALENDAR_DATE ( 2020, 24, 12 ) ;
#141 = APPROVAL ( #80, 'UNSPECIFIED' ) ;
#142 = VERTEX_POINT ( 'NONE', #49 ) ;
#143 = CC_DESIGN_DATE_AND_TIME_ASSIGNMENT ( #152, #43, ( #46 ) ) ;
#144 = EDGE_LOOP ( 'NONE', ( #47, #109 ) ) ;
#145 = DIRECTION ( 'NONE',  ( -1.000000000000000000, -0.000000000000000000, -0.000000000000000000 ) ) ;
#146 = CARTESIAN_POINT ( 'NONE',  ( -3.000000000000002665, 0.000000000000000000, 0.000000000000000000 ) ) ;
#147 = CC_DESIGN_APPROVAL ( #106, ( #46 ) ) ;
#148 = APPLICATION_PROTOCOL_DEFINITION ( 'international standard', 'config_control_design', 1994, #122 ) ;
#149 = CARTESIAN_POINT ( 'NONE',  ( -3.000000000000000000, 0.000000000000000000, 0.000000000000000000 ) ) ;
#150 = COORDINATED_UNIVERSAL_TIME_OFFSET ( 8, 0, .AHEAD. ) ;
#151 = APPROVAL_PERSON_ORGANIZATION ( #5, #106, #28 ) ;
#152 = DATE_AND_TIME ( #1, #131 ) ;
#153 = CARTESIAN_POINT ( 'NONE',  ( -3.000000000000000000, 3.110602869834276865E-15, -25.39999999999999858 ) ) ;
#154 = ORIENTED_EDGE ( 'NONE', *, *, #9, .T. ) ;
#155 = ORIENTED_EDGE ( 'NONE', *, *, #139, .T. ) ;
#156 = ADVANCED_FACE ( 'NONE', ( #102 ), #173, .T. ) ;
#157 = CARTESIAN_POINT ( 'NONE',  ( 3.000000000000001332, 25.39999999999999858, 0.000000000000000000 ) ) ;
#158 = EDGE_LOOP ( 'NONE', ( #104, #154, #77, #165 ) ) ;
#159 = CC_DESIGN_PERSON_AND_ORGANIZATION_ASSIGNMENT ( #164, #97, ( #30 ) ) ;
#160 = APPROVAL_ROLE ( '' ) ;
#161 = ADVANCED_BREP_SHAPE_REPRESENTATION ( 'QB-CTZHWP-50.8-795-M', ( #59, #35 ), #14 ) ;
#162 = AXIS2_PLACEMENT_3D ( 'NONE', #146, #135, #78 ) ;
#163 = PRODUCT_DEFINITION_SHAPE ( 'NONE', 'NONE',  #65 ) ;
#164 = PERSON_AND_ORGANIZATION ( #22, #168 ) ;
#165 = ORIENTED_EDGE ( 'NONE', *, *, #169, .F. ) ;
#166 = FACE_OUTER_BOUND ( 'NONE', #32, .T. ) ;
#167 = CIRCLE ( 'NONE', #111, 25.39999999999999858 ) ;
#168 = ORGANIZATION ( 'UNSPECIFIED', 'UNSPECIFIED', '' ) ;
#169 = EDGE_CURVE ( 'NONE', #142, #17, #85, .T. ) ;
#170 = DIRECTION ( 'NONE',  ( 0.000000000000000000, 0.000000000000000000, 1.000000000000000000 ) ) ;
#171 = PLANE ( 'NONE',  #37 ) ;
#172 = CC_DESIGN_PERSON_AND_ORGANIZATION_ASSIGNMENT ( #54, #55, ( #46 ) ) ;
#173 = CYLINDRICAL_SURFACE ( 'NONE', #11, 25.39999999999999858 ) ;
#174 = CARTESIAN_POINT ( 'NONE',  ( 0.000000000000000000, 0.000000000000000000, 0.000000000000000000 ) ) ;
#175 = COORDINATED_UNIVERSAL_TIME_OFFSET ( 8, 0, .AHEAD. ) ;
ENDSEC;
END-ISO-10303-21;
